ISO-10303-21;
HEADER;
/* Generated by software containing ST-Developer
 * from STEP Tools, Inc. (www.steptools.com) 
 */

FILE_DESCRIPTION(
/* description */ (''),
/* implementation_level */ '2;1');

FILE_NAME(
/* name */ 'C:/Users/ebredder/Desktop/TormachTTS-30mmWrench flat.step',

/* time_stamp */ '2019-02-26T17:05:07-05:00',
/* author */ ('ebredderAV3T4'),
/* organization */ (''),
/* preprocessor_version */ 'ST-DEVELOPER v17.2',
/* originating_system */ 'Autodesk Translation Framework v7.6.0.251',
/* authorisation */ '');

FILE_SCHEMA (('AUTOMOTIVE_DESIGN { 1 0 10303 214 3 1 1 }'));
ENDSEC;

DATA;
#10=MECHANICAL_DESIGN_GEOMETRIC_PRESENTATION_REPRESENTATION('',(#17),#446);
#11=ITEM_DEFINED_TRANSFORMATION($,$,#262,#290);
#12=(
REPRESENTATION_RELATIONSHIP($,$,#457,#456)
REPRESENTATION_RELATIONSHIP_WITH_TRANSFORMATION(#11)
SHAPE_REPRESENTATION_RELATIONSHIP()
);
#13=CONTEXT_DEPENDENT_SHAPE_REPRESENTATION(#12,#455);
#14=NEXT_ASSEMBLY_USAGE_OCCURRENCE('Component2:1','Component2:1',
'Component2:1',#459,#460,'Component2:1');
#15=SHAPE_REPRESENTATION_RELATIONSHIP('SRR','None',#457,#16);
#16=ADVANCED_BREP_SHAPE_REPRESENTATION('',(#18),#445);
#17=STYLED_ITEM('',(#470),#18);
#18=MANIFOLD_SOLID_BREP('Body1',#248);
#19=FACE_BOUND('',#52,.T.);
#20=FACE_BOUND('',#54,.T.);
#21=PLANE('',#272);
#22=PLANE('',#279);
#23=PLANE('',#280);
#24=PLANE('',#287);
#25=PLANE('',#288);
#26=PLANE('',#289);
#27=FACE_OUTER_BOUND('',#40,.T.);
#28=FACE_OUTER_BOUND('',#41,.T.);
#29=FACE_OUTER_BOUND('',#42,.T.);
#30=FACE_OUTER_BOUND('',#43,.T.);
#31=FACE_OUTER_BOUND('',#44,.T.);
#32=FACE_OUTER_BOUND('',#45,.T.);
#33=FACE_OUTER_BOUND('',#46,.T.);
#34=FACE_OUTER_BOUND('',#47,.T.);
#35=FACE_OUTER_BOUND('',#48,.T.);
#36=FACE_OUTER_BOUND('',#49,.T.);
#37=FACE_OUTER_BOUND('',#50,.T.);
#38=FACE_OUTER_BOUND('',#51,.T.);
#39=FACE_OUTER_BOUND('',#53,.T.);
#40=EDGE_LOOP('',(#162,#163,#164,#165));
#41=EDGE_LOOP('',(#166,#167,#168,#169));
#42=EDGE_LOOP('',(#170,#171,#172,#173));
#43=EDGE_LOOP('',(#174,#175,#176,#177));
#44=EDGE_LOOP('',(#178,#179,#180,#181));
#45=EDGE_LOOP('',(#182,#183,#184,#185));
#46=EDGE_LOOP('',(#186,#187,#188,#189));
#47=EDGE_LOOP('',(#190,#191,#192,#193));
#48=EDGE_LOOP('',(#194,#195,#196,#197));
#49=EDGE_LOOP('',(#198,#199,#200,#201));
#50=EDGE_LOOP('',(#202,#203,#204,#205));
#51=EDGE_LOOP('',(#206,#207,#208,#209,#210,#211,#212,#213,#214,#215));
#52=EDGE_LOOP('',(#216));
#53=EDGE_LOOP('',(#217,#218,#219,#220,#221,#222,#223,#224,#225,#226));
#54=EDGE_LOOP('',(#227));
#55=LINE('',#377,#74);
#56=LINE('',#380,#75);
#57=LINE('',#385,#76);
#58=LINE('',#392,#77);
#59=LINE('',#395,#78);
#60=LINE('',#398,#79);
#61=LINE('',#400,#80);
#62=LINE('',#401,#81);
#63=LINE('',#406,#82);
#64=LINE('',#413,#83);
#65=LINE('',#416,#84);
#66=LINE('',#418,#85);
#67=LINE('',#419,#86);
#68=LINE('',#422,#87);
#69=LINE('',#424,#88);
#70=LINE('',#425,#89);
#71=LINE('',#433,#90);
#72=LINE('',#436,#91);
#73=LINE('',#437,#92);
#74=VECTOR('',#299,10.);
#75=VECTOR('',#302,10.);
#76=VECTOR('',#307,10.);
#77=VECTOR('',#314,10.);
#78=VECTOR('',#317,10.);
#79=VECTOR('',#320,10.);
#80=VECTOR('',#321,10.);
#81=VECTOR('',#322,10.);
#82=VECTOR('',#327,6.00000000000001);
#83=VECTOR('',#334,10.);
#84=VECTOR('',#337,10.);
#85=VECTOR('',#340,10.);
#86=VECTOR('',#341,10.);
#87=VECTOR('',#344,10.);
#88=VECTOR('',#345,10.);
#89=VECTOR('',#346,10.);
#90=VECTOR('',#357,10.);
#91=VECTOR('',#362,10.);
#92=VECTOR('',#363,10.);
#93=CIRCLE('',#264,12.5);
#94=CIRCLE('',#265,12.5);
#95=CIRCLE('',#267,35.);
#96=CIRCLE('',#268,35.);
#97=CIRCLE('',#270,12.5);
#98=CIRCLE('',#271,12.5);
#99=CIRCLE('',#274,6.00000000000001);
#100=CIRCLE('',#275,6.00000000000001);
#101=CIRCLE('',#277,12.5);
#102=CIRCLE('',#278,12.5);
#103=CIRCLE('',#282,15.);
#104=CIRCLE('',#283,15.);
#105=CIRCLE('',#285,35.);
#106=CIRCLE('',#286,35.);
#107=VERTEX_POINT('',#373);
#108=VERTEX_POINT('',#374);
#109=VERTEX_POINT('',#376);
#110=VERTEX_POINT('',#378);
#111=VERTEX_POINT('',#382);
#112=VERTEX_POINT('',#384);
#113=VERTEX_POINT('',#388);
#114=VERTEX_POINT('',#389);
#115=VERTEX_POINT('',#391);
#116=VERTEX_POINT('',#393);
#117=VERTEX_POINT('',#397);
#118=VERTEX_POINT('',#399);
#119=VERTEX_POINT('',#403);
#120=VERTEX_POINT('',#405);
#121=VERTEX_POINT('',#409);
#122=VERTEX_POINT('',#410);
#123=VERTEX_POINT('',#412);
#124=VERTEX_POINT('',#414);
#125=VERTEX_POINT('',#421);
#126=VERTEX_POINT('',#423);
#127=VERTEX_POINT('',#430);
#128=VERTEX_POINT('',#432);
#129=EDGE_CURVE('',#107,#108,#93,.T.);
#130=EDGE_CURVE('',#108,#109,#55,.T.);
#131=EDGE_CURVE('',#109,#110,#94,.T.);
#132=EDGE_CURVE('',#110,#107,#56,.T.);
#133=EDGE_CURVE('',#108,#111,#95,.T.);
#134=EDGE_CURVE('',#111,#112,#57,.T.);
#135=EDGE_CURVE('',#109,#112,#96,.T.);
#136=EDGE_CURVE('',#113,#114,#97,.T.);
#137=EDGE_CURVE('',#114,#115,#58,.T.);
#138=EDGE_CURVE('',#115,#116,#98,.T.);
#139=EDGE_CURVE('',#116,#113,#59,.T.);
#140=EDGE_CURVE('',#114,#117,#60,.T.);
#141=EDGE_CURVE('',#117,#118,#61,.T.);
#142=EDGE_CURVE('',#115,#118,#62,.T.);
#143=EDGE_CURVE('',#119,#119,#99,.T.);
#144=EDGE_CURVE('',#119,#120,#63,.T.);
#145=EDGE_CURVE('',#120,#120,#100,.T.);
#146=EDGE_CURVE('',#121,#122,#101,.T.);
#147=EDGE_CURVE('',#121,#123,#64,.T.);
#148=EDGE_CURVE('',#124,#123,#102,.T.);
#149=EDGE_CURVE('',#122,#124,#65,.T.);
#150=EDGE_CURVE('',#122,#111,#66,.T.);
#151=EDGE_CURVE('',#112,#124,#67,.T.);
#152=EDGE_CURVE('',#125,#110,#68,.T.);
#153=EDGE_CURVE('',#126,#125,#69,.T.);
#154=EDGE_CURVE('',#107,#126,#70,.T.);
#155=EDGE_CURVE('',#117,#126,#103,.T.);
#156=EDGE_CURVE('',#118,#125,#104,.T.);
#157=EDGE_CURVE('',#127,#116,#105,.T.);
#158=EDGE_CURVE('',#128,#127,#71,.T.);
#159=EDGE_CURVE('',#128,#113,#106,.T.);
#160=EDGE_CURVE('',#121,#128,#72,.T.);
#161=EDGE_CURVE('',#123,#127,#73,.T.);
#162=ORIENTED_EDGE('',*,*,#129,.T.);
#163=ORIENTED_EDGE('',*,*,#130,.T.);
#164=ORIENTED_EDGE('',*,*,#131,.T.);
#165=ORIENTED_EDGE('',*,*,#132,.T.);
#166=ORIENTED_EDGE('',*,*,#130,.F.);
#167=ORIENTED_EDGE('',*,*,#133,.T.);
#168=ORIENTED_EDGE('',*,*,#134,.T.);
#169=ORIENTED_EDGE('',*,*,#135,.F.);
#170=ORIENTED_EDGE('',*,*,#136,.T.);
#171=ORIENTED_EDGE('',*,*,#137,.T.);
#172=ORIENTED_EDGE('',*,*,#138,.T.);
#173=ORIENTED_EDGE('',*,*,#139,.T.);
#174=ORIENTED_EDGE('',*,*,#137,.F.);
#175=ORIENTED_EDGE('',*,*,#140,.T.);
#176=ORIENTED_EDGE('',*,*,#141,.T.);
#177=ORIENTED_EDGE('',*,*,#142,.F.);
#178=ORIENTED_EDGE('',*,*,#143,.F.);
#179=ORIENTED_EDGE('',*,*,#144,.T.);
#180=ORIENTED_EDGE('',*,*,#145,.T.);
#181=ORIENTED_EDGE('',*,*,#144,.F.);
#182=ORIENTED_EDGE('',*,*,#146,.F.);
#183=ORIENTED_EDGE('',*,*,#147,.T.);
#184=ORIENTED_EDGE('',*,*,#148,.F.);
#185=ORIENTED_EDGE('',*,*,#149,.F.);
#186=ORIENTED_EDGE('',*,*,#150,.F.);
#187=ORIENTED_EDGE('',*,*,#149,.T.);
#188=ORIENTED_EDGE('',*,*,#151,.F.);
#189=ORIENTED_EDGE('',*,*,#134,.F.);
#190=ORIENTED_EDGE('',*,*,#132,.F.);
#191=ORIENTED_EDGE('',*,*,#152,.F.);
#192=ORIENTED_EDGE('',*,*,#153,.F.);
#193=ORIENTED_EDGE('',*,*,#154,.F.);
#194=ORIENTED_EDGE('',*,*,#155,.T.);
#195=ORIENTED_EDGE('',*,*,#153,.T.);
#196=ORIENTED_EDGE('',*,*,#156,.F.);
#197=ORIENTED_EDGE('',*,*,#141,.F.);
#198=ORIENTED_EDGE('',*,*,#139,.F.);
#199=ORIENTED_EDGE('',*,*,#157,.F.);
#200=ORIENTED_EDGE('',*,*,#158,.F.);
#201=ORIENTED_EDGE('',*,*,#159,.T.);
#202=ORIENTED_EDGE('',*,*,#160,.T.);
#203=ORIENTED_EDGE('',*,*,#158,.T.);
#204=ORIENTED_EDGE('',*,*,#161,.F.);
#205=ORIENTED_EDGE('',*,*,#147,.F.);
#206=ORIENTED_EDGE('',*,*,#161,.T.);
#207=ORIENTED_EDGE('',*,*,#157,.T.);
#208=ORIENTED_EDGE('',*,*,#138,.F.);
#209=ORIENTED_EDGE('',*,*,#142,.T.);
#210=ORIENTED_EDGE('',*,*,#156,.T.);
#211=ORIENTED_EDGE('',*,*,#152,.T.);
#212=ORIENTED_EDGE('',*,*,#131,.F.);
#213=ORIENTED_EDGE('',*,*,#135,.T.);
#214=ORIENTED_EDGE('',*,*,#151,.T.);
#215=ORIENTED_EDGE('',*,*,#148,.T.);
#216=ORIENTED_EDGE('',*,*,#143,.T.);
#217=ORIENTED_EDGE('',*,*,#160,.F.);
#218=ORIENTED_EDGE('',*,*,#146,.T.);
#219=ORIENTED_EDGE('',*,*,#150,.T.);
#220=ORIENTED_EDGE('',*,*,#133,.F.);
#221=ORIENTED_EDGE('',*,*,#129,.F.);
#222=ORIENTED_EDGE('',*,*,#154,.T.);
#223=ORIENTED_EDGE('',*,*,#155,.F.);
#224=ORIENTED_EDGE('',*,*,#140,.F.);
#225=ORIENTED_EDGE('',*,*,#136,.F.);
#226=ORIENTED_EDGE('',*,*,#159,.F.);
#227=ORIENTED_EDGE('',*,*,#145,.F.);
#228=CYLINDRICAL_SURFACE('',#263,12.5);
#229=CYLINDRICAL_SURFACE('',#266,35.);
#230=CYLINDRICAL_SURFACE('',#269,12.5);
#231=CYLINDRICAL_SURFACE('',#273,6.00000000000001);
#232=CYLINDRICAL_SURFACE('',#276,12.5);
#233=CYLINDRICAL_SURFACE('',#281,15.);
#234=CYLINDRICAL_SURFACE('',#284,35.);
#235=ADVANCED_FACE('',(#27),#228,.F.);
#236=ADVANCED_FACE('',(#28),#229,.T.);
#237=ADVANCED_FACE('',(#29),#230,.F.);
#238=ADVANCED_FACE('',(#30),#21,.T.);
#239=ADVANCED_FACE('',(#31),#231,.F.);
#240=ADVANCED_FACE('',(#32),#232,.F.);
#241=ADVANCED_FACE('',(#33),#22,.T.);
#242=ADVANCED_FACE('',(#34),#23,.T.);
#243=ADVANCED_FACE('',(#35),#233,.T.);
#244=ADVANCED_FACE('',(#36),#234,.T.);
#245=ADVANCED_FACE('',(#37),#24,.T.);
#246=ADVANCED_FACE('',(#38,#19),#25,.T.);
#247=ADVANCED_FACE('',(#39,#20),#26,.F.);
#248=CLOSED_SHELL('',(#235,#236,#237,#238,#239,#240,#241,#242,#243,#244,
#245,#246,#247));
#249=DERIVED_UNIT_ELEMENT(#251,1.);
#250=DERIVED_UNIT_ELEMENT(#448,3.);
#251=(
MASS_UNIT()
NAMED_UNIT(*)
SI_UNIT(.KILO.,.GRAM.)
);
#252=DERIVED_UNIT((#249,#250));
#253=MEASURE_REPRESENTATION_ITEM('density measure',
POSITIVE_RATIO_MEASURE(7850.),#252);
#254=PROPERTY_DEFINITION_REPRESENTATION(#259,#256);
#255=PROPERTY_DEFINITION_REPRESENTATION(#260,#257);
#256=REPRESENTATION('material name',(#258),#445);
#257=REPRESENTATION('density',(#253),#445);
#258=DESCRIPTIVE_REPRESENTATION_ITEM('Steel','Steel');
#259=PROPERTY_DEFINITION('material property','material name',#460);
#260=PROPERTY_DEFINITION('material property','density of part',#460);
#261=AXIS2_PLACEMENT_3D('placement',#370,#291,#292);
#262=AXIS2_PLACEMENT_3D('placement',#371,#293,#294);
#263=AXIS2_PLACEMENT_3D('',#372,#295,#296);
#264=AXIS2_PLACEMENT_3D('',#375,#297,#298);
#265=AXIS2_PLACEMENT_3D('',#379,#300,#301);
#266=AXIS2_PLACEMENT_3D('',#381,#303,#304);
#267=AXIS2_PLACEMENT_3D('',#383,#305,#306);
#268=AXIS2_PLACEMENT_3D('',#386,#308,#309);
#269=AXIS2_PLACEMENT_3D('',#387,#310,#311);
#270=AXIS2_PLACEMENT_3D('',#390,#312,#313);
#271=AXIS2_PLACEMENT_3D('',#394,#315,#316);
#272=AXIS2_PLACEMENT_3D('',#396,#318,#319);
#273=AXIS2_PLACEMENT_3D('',#402,#323,#324);
#274=AXIS2_PLACEMENT_3D('',#404,#325,#326);
#275=AXIS2_PLACEMENT_3D('',#407,#328,#329);
#276=AXIS2_PLACEMENT_3D('',#408,#330,#331);
#277=AXIS2_PLACEMENT_3D('',#411,#332,#333);
#278=AXIS2_PLACEMENT_3D('',#415,#335,#336);
#279=AXIS2_PLACEMENT_3D('',#417,#338,#339);
#280=AXIS2_PLACEMENT_3D('',#420,#342,#343);
#281=AXIS2_PLACEMENT_3D('',#426,#347,#348);
#282=AXIS2_PLACEMENT_3D('',#427,#349,#350);
#283=AXIS2_PLACEMENT_3D('',#428,#351,#352);
#284=AXIS2_PLACEMENT_3D('',#429,#353,#354);
#285=AXIS2_PLACEMENT_3D('',#431,#355,#356);
#286=AXIS2_PLACEMENT_3D('',#434,#358,#359);
#287=AXIS2_PLACEMENT_3D('',#435,#360,#361);
#288=AXIS2_PLACEMENT_3D('',#438,#364,#365);
#289=AXIS2_PLACEMENT_3D('',#439,#366,#367);
#290=AXIS2_PLACEMENT_3D('',#440,#368,#369);
#291=DIRECTION('axis',(0.,0.,1.));
#292=DIRECTION('refdir',(1.,0.,0.));
#293=DIRECTION('axis',(0.,0.,1.));
#294=DIRECTION('refdir',(1.,0.,0.));
#295=DIRECTION('center_axis',(0.,0.,1.));
#296=DIRECTION('ref_axis',(-0.888523316638639,0.458831467741124,0.));
#297=DIRECTION('center_axis',(0.,0.,-1.));
#298=DIRECTION('ref_axis',(-0.888523316638639,0.458831467741124,0.));
#299=DIRECTION('',(0.,0.,1.));
#300=DIRECTION('center_axis',(0.,0.,1.));
#301=DIRECTION('ref_axis',(-0.888523316638639,0.458831467741124,0.));
#302=DIRECTION('',(0.,0.,-1.));
#303=DIRECTION('center_axis',(0.,0.,1.));
#304=DIRECTION('ref_axis',(0.428571428571428,-0.903507902905251,0.));
#305=DIRECTION('center_axis',(0.,0.,1.));
#306=DIRECTION('ref_axis',(0.428571428571428,-0.903507902905251,0.));
#307=DIRECTION('',(0.,0.,1.));
#308=DIRECTION('center_axis',(0.,0.,1.));
#309=DIRECTION('ref_axis',(0.428571428571428,-0.903507902905251,0.));
#310=DIRECTION('center_axis',(0.,0.,1.));
#311=DIRECTION('ref_axis',(0.888523316638639,0.458831467741124,0.));
#312=DIRECTION('center_axis',(0.,0.,-1.));
#313=DIRECTION('ref_axis',(0.888523316638639,0.458831467741124,0.));
#314=DIRECTION('',(0.,0.,1.));
#315=DIRECTION('center_axis',(0.,0.,1.));
#316=DIRECTION('ref_axis',(0.888523316638639,0.458831467741124,0.));
#317=DIRECTION('',(0.,0.,-1.));
#318=DIRECTION('center_axis',(-1.,0.,0.));
#319=DIRECTION('ref_axis',(0.,-1.,0.));
#320=DIRECTION('',(0.,-1.,0.));
#321=DIRECTION('',(0.,0.,1.));
#322=DIRECTION('',(0.,-1.,0.));
#323=DIRECTION('center_axis',(0.,0.,1.));
#324=DIRECTION('ref_axis',(1.,0.,0.));
#325=DIRECTION('center_axis',(0.,0.,-1.));
#326=DIRECTION('ref_axis',(1.,0.,0.));
#327=DIRECTION('',(0.,0.,-1.));
#328=DIRECTION('center_axis',(0.,0.,-1.));
#329=DIRECTION('ref_axis',(1.,0.,0.));
#330=DIRECTION('center_axis',(0.,0.,1.));
#331=DIRECTION('ref_axis',(-0.88,-0.474973683481517,0.));
#332=DIRECTION('center_axis',(0.,0.,1.));
#333=DIRECTION('ref_axis',(-0.88,-0.474973683481517,0.));
#334=DIRECTION('',(0.,0.,1.));
#335=DIRECTION('center_axis',(0.,0.,-1.));
#336=DIRECTION('ref_axis',(-0.88,-0.474973683481517,0.));
#337=DIRECTION('',(0.,0.,1.));
#338=DIRECTION('center_axis',(-1.,0.,0.));
#339=DIRECTION('ref_axis',(0.,-1.,0.));
#340=DIRECTION('',(0.,1.,0.));
#341=DIRECTION('',(0.,-1.,0.));
#342=DIRECTION('center_axis',(1.,0.,0.));
#343=DIRECTION('ref_axis',(0.,1.,0.));
#344=DIRECTION('',(0.,1.,0.));
#345=DIRECTION('',(0.,0.,1.));
#346=DIRECTION('',(0.,-1.,0.));
#347=DIRECTION('center_axis',(0.,0.,1.));
#348=DIRECTION('ref_axis',(-1.,0.,0.));
#349=DIRECTION('center_axis',(0.,0.,1.));
#350=DIRECTION('ref_axis',(-1.,0.,0.));
#351=DIRECTION('center_axis',(0.,0.,1.));
#352=DIRECTION('ref_axis',(-1.,0.,0.));
#353=DIRECTION('center_axis',(0.,0.,1.));
#354=DIRECTION('ref_axis',(-0.314285714285714,0.949328441476351,0.));
#355=DIRECTION('center_axis',(0.,0.,1.));
#356=DIRECTION('ref_axis',(-0.314285714285714,0.949328441476351,0.));
#357=DIRECTION('',(0.,0.,1.));
#358=DIRECTION('center_axis',(0.,0.,1.));
#359=DIRECTION('ref_axis',(-0.314285714285714,0.949328441476351,0.));
#360=DIRECTION('center_axis',(1.,0.,0.));
#361=DIRECTION('ref_axis',(0.,1.,0.));
#362=DIRECTION('',(0.,1.,0.));
#363=DIRECTION('',(0.,1.,0.));
#364=DIRECTION('center_axis',(0.,0.,1.));
#365=DIRECTION('ref_axis',(1.,0.,0.));
#366=DIRECTION('center_axis',(0.,0.,1.));
#367=DIRECTION('ref_axis',(1.,0.,0.));
#368=DIRECTION('',(0.,0.,1.));
#369=DIRECTION('',(1.,0.,0.));
#370=CARTESIAN_POINT('',(0.,0.,0.));
#371=CARTESIAN_POINT('',(0.,0.,0.));
#372=CARTESIAN_POINT('Origin',(27.5,-38.7298334620742,0.));
#373=CARTESIAN_POINT('',(15.,-38.7298334620742,0.));
#374=CARTESIAN_POINT('',(20.2631578947368,-28.5377720246862,0.));
#375=CARTESIAN_POINT('Origin',(27.5,-38.7298334620742,0.));
#376=CARTESIAN_POINT('',(20.2631578947368,-28.5377720246862,6.35));
#377=CARTESIAN_POINT('',(20.2631578947368,-28.5377720246862,0.));
#378=CARTESIAN_POINT('',(15.,-38.7298334620742,6.35));
#379=CARTESIAN_POINT('Origin',(27.5,-38.7298334620742,6.35));
#380=CARTESIAN_POINT('',(15.,-38.7298334620742,0.));
#381=CARTESIAN_POINT('Origin',(0.,0.,0.));
#382=CARTESIAN_POINT('',(11.,33.2264954516723,0.));
#383=CARTESIAN_POINT('Origin',(0.,0.,0.));
#384=CARTESIAN_POINT('',(11.,33.2264954516723,6.35));
#385=CARTESIAN_POINT('',(11.,33.2264954516723,0.));
#386=CARTESIAN_POINT('Origin',(0.,0.,6.35));
#387=CARTESIAN_POINT('Origin',(-27.5,-38.7298334620742,0.));
#388=CARTESIAN_POINT('',(-20.2631578947368,-28.5377720246862,0.));
#389=CARTESIAN_POINT('',(-15.,-38.7298334620742,0.));
#390=CARTESIAN_POINT('Origin',(-27.5,-38.7298334620742,0.));
#391=CARTESIAN_POINT('',(-15.,-38.7298334620742,6.35));
#392=CARTESIAN_POINT('',(-15.,-38.7298334620742,0.));
#393=CARTESIAN_POINT('',(-20.2631578947368,-28.5377720246862,6.35));
#394=CARTESIAN_POINT('Origin',(-27.5,-38.7298334620742,6.35));
#395=CARTESIAN_POINT('',(-20.2631578947368,-28.5377720246862,0.));
#396=CARTESIAN_POINT('Origin',(-15.,-31.6227766016838,0.));
#397=CARTESIAN_POINT('',(-15.,-155.937171043519,0.));
#398=CARTESIAN_POINT('',(-15.,-31.6227766016838,0.));
#399=CARTESIAN_POINT('',(-15.,-155.937171043519,6.35));
#400=CARTESIAN_POINT('',(-15.,-155.937171043519,0.));
#401=CARTESIAN_POINT('',(-15.,-31.6227766016838,6.35));
#402=CARTESIAN_POINT('Origin',(0.,-155.937171043519,0.));
#403=CARTESIAN_POINT('',(-6.00000000000001,-155.937171043519,6.35));
#404=CARTESIAN_POINT('Origin',(0.,-155.937171043519,6.35));
#405=CARTESIAN_POINT('',(-6.00000000000001,-155.937171043519,0.));
#406=CARTESIAN_POINT('',(-6.00000000000001,-155.937171043519,0.));
#407=CARTESIAN_POINT('Origin',(0.,-155.937171043519,0.));
#408=CARTESIAN_POINT('Origin',(0.,0.,0.));
#409=CARTESIAN_POINT('',(-11.,-5.93717104351896,0.));
#410=CARTESIAN_POINT('',(11.,-5.93717104351896,0.));
#411=CARTESIAN_POINT('Origin',(0.,0.,0.));
#412=CARTESIAN_POINT('',(-11.,-5.93717104351896,6.35));
#413=CARTESIAN_POINT('',(-11.,-5.93717104351896,0.));
#414=CARTESIAN_POINT('',(11.,-5.93717104351896,6.35));
#415=CARTESIAN_POINT('Origin',(0.,0.,6.35));
#416=CARTESIAN_POINT('',(11.,-5.93717104351896,0.));
#417=CARTESIAN_POINT('Origin',(11.,33.2264954516723,0.));
#418=CARTESIAN_POINT('',(11.,0.,0.));
#419=CARTESIAN_POINT('',(11.,0.,6.35));
#420=CARTESIAN_POINT('Origin',(15.,-155.937171043519,0.));
#421=CARTESIAN_POINT('',(15.,-155.937171043519,6.35));
#422=CARTESIAN_POINT('',(15.,-31.6227766016838,6.35));
#423=CARTESIAN_POINT('',(15.,-155.937171043519,0.));
#424=CARTESIAN_POINT('',(15.,-155.937171043519,0.));
#425=CARTESIAN_POINT('',(15.,-31.6227766016838,0.));
#426=CARTESIAN_POINT('Origin',(0.,-155.937171043519,0.));
#427=CARTESIAN_POINT('Origin',(0.,-155.937171043519,0.));
#428=CARTESIAN_POINT('Origin',(0.,-155.937171043519,6.35));
#429=CARTESIAN_POINT('Origin',(0.,0.,0.));
#430=CARTESIAN_POINT('',(-11.,33.2264954516723,6.35));
#431=CARTESIAN_POINT('Origin',(0.,0.,6.35));
#432=CARTESIAN_POINT('',(-11.,33.2264954516723,0.));
#433=CARTESIAN_POINT('',(-11.,33.2264954516723,0.));
#434=CARTESIAN_POINT('Origin',(0.,0.,0.));
#435=CARTESIAN_POINT('Origin',(-11.,-5.93717104351896,0.));
#436=CARTESIAN_POINT('',(-11.,0.,0.));
#437=CARTESIAN_POINT('',(-11.,0.,6.35));
#438=CARTESIAN_POINT('Origin',(0.,-68.8553377959233,6.35));
#439=CARTESIAN_POINT('Origin',(0.,-68.8553377959233,0.));
#440=CARTESIAN_POINT('',(0.,0.,0.));
#441=UNCERTAINTY_MEASURE_WITH_UNIT(LENGTH_MEASURE(0.01),#447,
'DISTANCE_ACCURACY_VALUE',
'Maximum model space distance between geometric entities at asserted c
onnectivities');
#442=UNCERTAINTY_MEASURE_WITH_UNIT(LENGTH_MEASURE(0.01),#447,
'DISTANCE_ACCURACY_VALUE',
'Maximum model space distance between geometric entities at asserted c
onnectivities');
#443=UNCERTAINTY_MEASURE_WITH_UNIT(LENGTH_MEASURE(0.01),#447,
'DISTANCE_ACCURACY_VALUE',
'Maximum model space distance between geometric entities at asserted c
onnectivities');
#444=(
GEOMETRIC_REPRESENTATION_CONTEXT(3)
GLOBAL_UNCERTAINTY_ASSIGNED_CONTEXT((#441))
GLOBAL_UNIT_ASSIGNED_CONTEXT((#447,#449,#450))
REPRESENTATION_CONTEXT('','3D')
);
#445=(
GEOMETRIC_REPRESENTATION_CONTEXT(3)
GLOBAL_UNCERTAINTY_ASSIGNED_CONTEXT((#442))
GLOBAL_UNIT_ASSIGNED_CONTEXT((#447,#449,#450))
REPRESENTATION_CONTEXT('','3D')
);
#446=(
GEOMETRIC_REPRESENTATION_CONTEXT(3)
GLOBAL_UNCERTAINTY_ASSIGNED_CONTEXT((#443))
GLOBAL_UNIT_ASSIGNED_CONTEXT((#447,#449,#450))
REPRESENTATION_CONTEXT('','3D')
);
#447=(
LENGTH_UNIT()
NAMED_UNIT(*)
SI_UNIT(.MILLI.,.METRE.)
);
#448=(
LENGTH_UNIT()
NAMED_UNIT(*)
SI_UNIT($,.METRE.)
);
#449=(
NAMED_UNIT(*)
PLANE_ANGLE_UNIT()
SI_UNIT($,.RADIAN.)
);
#450=(
NAMED_UNIT(*)
SI_UNIT($,.STERADIAN.)
SOLID_ANGLE_UNIT()
);
#451=SHAPE_DEFINITION_REPRESENTATION(#453,#456);
#452=SHAPE_DEFINITION_REPRESENTATION(#454,#457);
#453=PRODUCT_DEFINITION_SHAPE('',$,#459);
#454=PRODUCT_DEFINITION_SHAPE('',$,#460);
#455=PRODUCT_DEFINITION_SHAPE($,$,#14);
#456=SHAPE_REPRESENTATION('',(#261,#290),#444);
#457=SHAPE_REPRESENTATION('',(#262),#445);
#458=PRODUCT_DEFINITION_CONTEXT('part definition',#466,'design');
#459=PRODUCT_DEFINITION('TormachTTS-30mmWrench',
'TormachTTS-30mmWrench v2',#461,#458);
#460=PRODUCT_DEFINITION('Component2','Component2',#462,#458);
#461=PRODUCT_DEFINITION_FORMATION('',$,#468);
#462=PRODUCT_DEFINITION_FORMATION('',$,#469);
#463=PRODUCT_RELATED_PRODUCT_CATEGORY('TormachTTS-30mmWrench v2',
'TormachTTS-30mmWrench v2',(#468));
#464=PRODUCT_RELATED_PRODUCT_CATEGORY('Component2','Component2',(#469));
#465=APPLICATION_PROTOCOL_DEFINITION('international standard',
'automotive_design',2009,#466);
#466=APPLICATION_CONTEXT(
'Core Data for Automotive Mechanical Design Process');
#467=PRODUCT_CONTEXT('part definition',#466,'mechanical');
#468=PRODUCT('TormachTTS-30mmWrench','TormachTTS-30mmWrench v2',$,(#467));
#469=PRODUCT('Component2','Component2',$,(#467));
#470=PRESENTATION_STYLE_ASSIGNMENT((#471));
#471=SURFACE_STYLE_USAGE(.BOTH.,#472);
#472=SURFACE_SIDE_STYLE('',(#473));
#473=SURFACE_STYLE_FILL_AREA(#474);
#474=FILL_AREA_STYLE('Steel - Satin',(#475));
#475=FILL_AREA_STYLE_COLOUR('Steel - Satin',#476);
#476=COLOUR_RGB('Steel - Satin',0.627450980392157,0.627450980392157,0.627450980392157);
ENDSEC;
END-ISO-10303-21;
